ISO-10303-21;
HEADER;
FILE_DESCRIPTION (( 'STEP AP214' ),
    '1' );
FILE_NAME ('FULLVAC BP1KF16.STEP',
    '2019-03-26T13:34:05',
    ( '' ),
    ( '' ),
    'SwSTEP 2.0',
    'SolidWorks 2017',
    '' );
FILE_SCHEMA (( 'AUTOMOTIVE_DESIGN' ));
ENDSEC;

DATA;
#1 = MECHANICAL_DESIGN_GEOMETRIC_PRESENTATION_REPRESENTATION (  '', ( #50 ), #173 ) ;
#2 = EDGE_LOOP ( 'NONE', ( #137 ) ) ;
#3 = PRODUCT ( 'FULLVAC BP1KF16', 'FULLVAC BP1KF16', '', ( #272 ) ) ;
#4 = CARTESIAN_POINT ( 'NONE',  ( 8.308920733193583900E-017, 1.017549318027457400E-032, -7.491762493218845800 ) ) ;
#5 = SURFACE_STYLE_USAGE ( .BOTH. , #144 ) ;
#6 = CARTESIAN_POINT ( 'NONE',  ( 0.03407417371093174300, 4.172882776868342700E-018, 7.663064932377370300 ) ) ;
#7 = CARTESIAN_POINT ( 'NONE',  ( 0.03407417371092987000, 15.32612986475473900, 7.663064932377369400 ) ) ;
#8 = CIRCLE ( 'NONE', #145, 8.599999999999999600 ) ;
#9 = CARTESIAN_POINT ( 'NONE',  ( 0.01142320932989275400, 1.398939674184323100E-018, -7.578530382466898800 ) ) ;
#10 = PRODUCT_DEFINITION ( 'UNKNOWN', '', #183, #245 ) ;
#11 = DIRECTION ( 'NONE',  ( -1.156482317317871500E-016, 1.000000000000000000, 0.0000000000000000000 ) ) ;
#12 = ADVANCED_FACE ( 'NONE', ( #231 ), #235, .T. ) ;
#13 = CARTESIAN_POINT ( 'NONE',  ( 1.801401161689883100, 28.51763809020500400, -14.25881904510250200 ) ) ;
#14 = AXIS2_PLACEMENT_3D ( 'NONE', #256, #23, #74 ) ;
#15 = CARTESIAN_POINT ( 'NONE',  ( 1.923223286273255000, 2.355269241580199300E-016, 14.71346540353365400 ) ) ;
#16 = EDGE_LOOP ( 'NONE', ( #254 ) ) ;
#17 = CARTESIAN_POINT ( 'NONE',  ( 2.296642442585010300, -30.00000000000000400, -15.00000000000000200 ) ) ;
#18 = APPLICATION_PROTOCOL_DEFINITION ( 'draft international standard', 'automotive_design', 1998, #269 ) ;
#19 = FILL_AREA_STYLE ('',( #110 ) ) ;
#20 = AXIS2_PLACEMENT_3D ( 'NONE', #228, #172, #40 ) ;
#21 = CARTESIAN_POINT ( 'NONE',  ( 0.0000000000000000000, 0.0000000000000000000, 0.0000000000000000000 ) ) ;
#22 = AXIS2_PLACEMENT_3D ( 'NONE', #192, #25, #191 ) ;
#23 = DIRECTION ( 'NONE',  ( 1.000000000000000000, 1.224646799147350000E-016, 0.0000000000000000000 ) ) ;
#24 = CARTESIAN_POINT ( 'NONE',  ( 2.767326987978961900, 3.388998138022527900E-016, 0.0000000000000000000 ) ) ;
#25 = DIRECTION ( 'NONE',  ( -1.000000000000000000, -1.224646799147350000E-016, 0.0000000000000000000 ) ) ;
#26 = AXIS2_PLACEMENT_3D ( 'NONE', #114, #93, #53 ) ;
#27 = FACE_OUTER_BOUND ( 'NONE', #79, .T. ) ;
#28 = CARTESIAN_POINT ( 'NONE',  ( -1.813517205190215300E-015, 14.80849177454970100, -7.404245887274850400 ) ) ;
#29 = CARTESIAN_POINT ( 'NONE',  ( 0.01142320932989275400, 1.398939674184338500E-018, 7.578530382466898800 ) ) ;
#30 = ADVANCED_FACE ( 'NONE', ( #27, #253 ), #161, .T. ) ;
#31 = MECHANICAL_DESIGN_GEOMETRIC_PRESENTATION_REPRESENTATION (  '', ( #108 ), #213 ) ;
#32 = VERTEX_POINT ( 'NONE', #211 ) ;
#33 = EDGE_LOOP ( 'NONE', ( #200 ) ) ;
#34 = DIRECTION ( 'NONE',  ( -1.224646799147350000E-016, 1.000000000000000000, 0.0000000000000000000 ) ) ;
#35 = CARTESIAN_POINT ( 'NONE',  ( 5.000000000000000900, 6.123233995736769200E-016, 0.0000000000000000000 ) ) ;
#36 = AXIS2_PLACEMENT_3D ( 'NONE', #226, #268, #11 ) ;
#37 = CARTESIAN_POINT ( 'NONE',  ( 2.767326987978956600, 29.99999999999999600, -14.99999999999999800 ) ) ;
#38 = CIRCLE ( 'NONE', #274, 4.900000000000000400 ) ;
#39 = EDGE_LOOP ( 'NONE', ( #149 ) ) ;
#40 = DIRECTION ( 'NONE',  ( -1.770125995894701000E-016, 1.000000000000000000, 0.0000000000000000000 ) ) ;
#41 = CARTESIAN_POINT ( 'NONE',  ( 1.923223286273258600, -29.42693080706730800, -14.71346540353365400 ) ) ;
#42 = DIRECTION ( 'NONE',  ( 1.000000000000000000, 1.224646799147350000E-016, 0.0000000000000000000 ) ) ;
#43 = CARTESIAN_POINT ( 'NONE',  ( 2.500000000000000400, 8.599999999999999600, 0.0000000000000000000 ) ) ;
#44 = APPLICATION_PROTOCOL_DEFINITION ( 'draft international standard', 'automotive_design', 1998, #130 ) ;
#45 = FACE_OUTER_BOUND ( 'NONE', #102, .T. ) ;
#46 = FACE_OUTER_BOUND ( 'NONE', #16, .T. ) ;
#47 = AXIS2_PLACEMENT_3D ( 'NONE', #97, #280, #241 ) ;
#48 = VERTEX_POINT ( 'NONE', #43 ) ;
#49 = AXIS2_PLACEMENT_3D ( 'NONE', #21, #87, #89 ) ;
#50 = STYLED_ITEM ( 'NONE', ( #143 ), #215 ) ;
#51 = VERTEX_POINT ( 'NONE', #111 ) ;
#52 = ORIENTED_EDGE ( 'NONE', *, *, #230, .T. ) ;
#53 = DIRECTION ( 'NONE',  ( -1.216596879790139900E-016, 1.000000000000000000, 0.0000000000000000000 ) ) ;
#54 =( BOUNDED_SURFACE ( )  B_SPLINE_SURFACE ( 3, 3, ( 
 ( #150, #37, #82, #175, #206, #127, #176 ),
 ( #129, #243, #264, #265, #85, #17, #177 ),
 ( #288, #244, #152, #15, #286, #41, #126 ),
 ( #148, #13, #66, #62, #151, #124, #283 ) ),
 .UNSPECIFIED., .F., .T., .F. ) 
 B_SPLINE_SURFACE_WITH_KNOTS ( ( 4, 4 ),
 ( 4, 3, 4 ),
 ( 0.0000000000000000000, 1.000000000000000000 ),
 ( 0.0000000000000000000, 0.5000000000000000000, 1.000000000000000000 ),
 .UNSPECIFIED. ) 
 GEOMETRIC_REPRESENTATION_ITEM ( )  RATIONAL_B_SPLINE_SURFACE ( (
 ( 1.000000000000000000, 0.3333333333333333100, 0.3333333333333333100, 1.000000000000000000, 0.3333333333333333100, 0.3333333333333333100, 1.000000000000000000),
 ( 0.8622355601941527100, 0.2874118533980508600, 0.2874118533980508600, 0.8622355601941527100, 0.2874118533980508600, 0.2874118533980508600, 0.8622355601941527100),
 ( 0.8622355601941527100, 0.2874118533980508600, 0.2874118533980508600, 0.8622355601941527100, 0.2874118533980508600, 0.2874118533980508600, 0.8622355601941527100),
 ( 1.000000000000000000, 0.3333333333333333100, 0.3333333333333333100, 1.000000000000000000, 0.3333333333333333100, 0.3333333333333333100, 1.000000000000000000) ) ) 
 REPRESENTATION_ITEM ( '' )  SURFACE ( )  );
#55 = CARTESIAN_POINT ( 'NONE',  ( 5.000000000000000000, 8.599999999999999600, 0.0000000000000000000 ) ) ;
#56 = FACE_OUTER_BOUND ( 'NONE', #214, .T. ) ;
#57 = CARTESIAN_POINT ( 'NONE',  ( 0.01142320932989461200, -15.15706076493379800, 7.578530382466898800 ) ) ;
#58 = CARTESIAN_POINT ( 'NONE',  ( 8.308920733193583900E-017, 1.017549318027457400E-032, -7.491762493218845800 ) ) ;
#59 = SURFACE_STYLE_FILL_AREA ( #19 ) ;
#60 = ORIENTED_EDGE ( 'NONE', *, *, #236, .F. ) ;
#61 = CARTESIAN_POINT ( 'NONE',  ( 9.067586025951078500E-016, -7.404245887274854000, -14.80849177454969700 ) ) ;
#62 = CARTESIAN_POINT ( 'NONE',  ( 1.801401161689886600, 2.206080166643846300E-016, 14.25881904510250200 ) ) ;
#63 = CARTESIAN_POINT ( 'NONE',  ( -9.067586025951072600E-016, 7.404245887274849600, -14.80849177454969900 ) ) ;
#64 = CARTESIAN_POINT ( 'NONE',  ( 9.067586025951070600E-016, -7.404245887274848700, 14.80849177454970300 ) ) ;
#65 = FACE_OUTER_BOUND ( 'NONE', #115, .T. ) ;
#66 = CARTESIAN_POINT ( 'NONE',  ( 1.801401161689883100, 28.51763809020500400, 14.25881904510250200 ) ) ;
#67 =( BOUNDED_CURVE ( )  B_SPLINE_CURVE ( 3, ( #227, #204, #64, #105, #61, #63, #224 ),
 .UNSPECIFIED., .T., .T. ) 
 B_SPLINE_CURVE_WITH_KNOTS ( ( 4, 3, 4 ),
 ( 0.0000000000000000000, 0.5000000000000000000, 1.000000000000000000 ),
 .UNSPECIFIED. ) 
 CURVE ( )  GEOMETRIC_REPRESENTATION_ITEM ( )  RATIONAL_B_SPLINE_CURVE ( ( 1.000000000000000000, 0.3333333333333333700, 0.3333333333333333700, 1.000000000000000000, 0.3333333333333333700, 0.3333333333333333700, 1.000000000000000000 ) ) 
 REPRESENTATION_ITEM ( '' )  );
#68 = SURFACE_STYLE_USAGE ( .BOTH. , #209 ) ;
#69 = FACE_OUTER_BOUND ( 'NONE', #128, .T. ) ;
#70 = ORIENTED_EDGE ( 'NONE', *, *, #156, .T. ) ;
#71 = UNCERTAINTY_MEASURE_WITH_UNIT (LENGTH_MEASURE( 1.000000000000000100E-005 ), #252, 'distance_accuracy_value', 'NONE');
#72 = CARTESIAN_POINT ( 'NONE',  ( 2.767326987978960200, 15.00000000000000000, 0.0000000000000000000 ) ) ;
#73 = DIRECTION ( 'NONE',  ( 1.000000000000000000, 1.224646799147350000E-016, 0.0000000000000000000 ) ) ;
#74 = DIRECTION ( 'NONE',  ( -1.008560160451632100E-016, 1.000000000000000000, 0.0000000000000000000 ) ) ;
#75 = VERTEX_POINT ( 'NONE', #271 ) ;
#76 = CIRCLE ( 'NONE', #14, 8.599999999999999600 ) ;
#77 = DIRECTION ( 'NONE',  ( 1.000000000000000000, 1.224646799147350000E-016, 0.0000000000000000000 ) ) ;
#78 = CARTESIAN_POINT ( 'NONE',  ( 0.03407417371093362400, -15.32612986475473900, -7.663064932377369400 ) ) ;
#79 = EDGE_LOOP ( 'NONE', ( #250 ) ) ;
#80 = DIRECTION ( 'NONE',  ( 1.000000000000000000, 1.224646799147350000E-016, 0.0000000000000000000 ) ) ;
#81 = EDGE_CURVE ( 'NONE', #48, #48, #76, .T. ) ;
#82 = CARTESIAN_POINT ( 'NONE',  ( 2.767326987978956600, 29.99999999999999600, 14.99999999999999800 ) ) ;
#83 = CARTESIAN_POINT ( 'NONE',  ( 1.801401161689886600, 2.206080166643847300E-016, 0.0000000000000000000 ) ) ;
#84 = EDGE_LOOP ( 'NONE', ( #218 ) ) ;
#85 = CARTESIAN_POINT ( 'NONE',  ( 2.296642442585010300, -30.00000000000000400, 15.00000000000000200 ) ) ;
#86 = FACE_OUTER_BOUND ( 'NONE', #153, .T. ) ;
#87 = DIRECTION ( 'NONE',  ( 0.0000000000000000000, 0.0000000000000000000, 1.000000000000000000 ) ) ;
#88 =( LENGTH_UNIT ( ) NAMED_UNIT ( * ) SI_UNIT ( .MILLI., .METRE. ) );
#89 = DIRECTION ( 'NONE',  ( 1.000000000000000000, 0.0000000000000000000, 0.0000000000000000000 ) ) ;
#90 = FACE_OUTER_BOUND ( 'NONE', #276, .T. ) ;
#91 = ADVANCED_BREP_SHAPE_REPRESENTATION ( 'FULLVAC BP1KF16', ( #215, #49 ), #219 ) ;
#92 = ORIENTED_EDGE ( 'NONE', *, *, #81, .F. ) ;
#93 = DIRECTION ( 'NONE',  ( 1.000000000000000000, 1.140559574803256200E-016, 6.938006099602051700E-033 ) ) ;
#94 = FACE_BOUND ( 'NONE', #208, .T. ) ;
#95 = ORIENTED_EDGE ( 'NONE', *, *, #266, .T. ) ;
#96 = DIRECTION ( 'NONE',  ( -1.008560160451632100E-016, 1.000000000000000000, 0.0000000000000000000 ) ) ;
#97 = CARTESIAN_POINT ( 'NONE',  ( 3.750000000000000000, 4.592425496802579900E-016, 0.0000000000000000000 ) ) ;
#98 = EDGE_CURVE ( 'NONE', #186, #186, #261, .T. ) ;
#99 =( LENGTH_UNIT ( ) NAMED_UNIT ( * ) SI_UNIT ( .MILLI., .METRE. ) );
#100 = CONICAL_SURFACE ( 'NONE', #26, 14.25881904510590900, 1.308996939000000000 ) ;
#101 = CARTESIAN_POINT ( 'NONE',  ( -1.813517205190215300E-015, 14.80849177454970100, 7.404245887274850400 ) ) ;
#102 = EDGE_LOOP ( 'NONE', ( #133 ) ) ;
#103 = ADVANCED_FACE ( 'NONE', ( #193, #46 ), #100, .T. ) ;
#104 = DIRECTION ( 'NONE',  ( 1.000000000000000000, 1.224646799147350000E-016, 0.0000000000000000000 ) ) ;
#105 = CARTESIAN_POINT ( 'NONE',  ( 9.067586025951074600E-016, -7.404245887274850400, 1.360137903892664900E-015 ) ) ;
#106 = FACE_OUTER_BOUND ( 'NONE', #33, .T. ) ;
#107 =( NAMED_UNIT ( * ) PLANE_ANGLE_UNIT ( ) SI_UNIT ( $, .RADIAN. ) );
#108 = STYLED_ITEM ( 'NONE', ( #142 ), #91 ) ;
#109 = AXIS2_PLACEMENT_3D ( 'NONE', #194, #77, #34 ) ;
#110 = FILL_AREA_STYLE_COLOUR ( '', #136 ) ;
#111 = CARTESIAN_POINT ( 'NONE',  ( 1.801401161689886600, 2.206080166643847300E-016, -14.25881904510250200 ) ) ;
#112 = CYLINDRICAL_SURFACE ( 'NONE', #47, 8.599999999999999600 ) ;
#113 = UNCERTAINTY_MEASURE_WITH_UNIT (LENGTH_MEASURE( 1.000000000000000100E-005 ), #99, 'distance_accuracy_value', 'NONE');
#114 = CARTESIAN_POINT ( 'NONE',  ( 1.801401161677173200, -1.236597168850831500E-032, -7.522201285906211600E-049 ) ) ;
#115 = EDGE_LOOP ( 'NONE', ( #123 ) ) ;
#116 =( BOUNDED_SURFACE ( )  B_SPLINE_SURFACE ( 3, 3, ( 
 ( #242, #277, #7, #6, #140, #78, #239 ),
 ( #223, #166, #169, #29, #57, #121, #9 ),
 ( #4, #170, #171, #281, #147, #201, #58 ),
 ( #165, #28, #101, #202, #267, #246, #229 ) ),
 .UNSPECIFIED., .F., .T., .F. ) 
 B_SPLINE_SURFACE_WITH_KNOTS ( ( 4, 4 ),
 ( 4, 3, 4 ),
 ( 0.0000000000000000000, 1.000000000000000000 ),
 ( 0.0000000000000000000, 0.5000000000000000000, 1.000000000000000000 ),
 .UNSPECIFIED. ) 
 GEOMETRIC_REPRESENTATION_ITEM ( )  RATIONAL_B_SPLINE_SURFACE ( (
 ( 1.000000000000000000, 0.3333333333333333100, 0.3333333333333333100, 1.000000000000000000, 0.3333333333333333100, 0.3333333333333333100, 1.000000000000000000),
 ( 0.9942965742492069200, 0.3314321914164022900, 0.3314321914164022900, 0.9942965742492069200, 0.3314321914164022900, 0.3314321914164022900, 0.9942965742492069200),
 ( 0.9942965742492069200, 0.3314321914164022900, 0.3314321914164022900, 0.9942965742492069200, 0.3314321914164022900, 0.3314321914164022900, 0.9942965742492069200),
 ( 1.000000000000000000, 0.3333333333333333100, 0.3333333333333333100, 1.000000000000000000, 0.3333333333333333100, 0.3333333333333333100, 1.000000000000000000) ) ) 
 REPRESENTATION_ITEM ( '' )  SURFACE ( )  );
#117 = EDGE_CURVE ( 'NONE', #275, #275, #8, .T. ) ;
#118 = PLANE ( 'NONE',  #109 ) ;
#119 = DIRECTION ( 'NONE',  ( -1.000000000000000000, -1.224646799147350000E-016, -0.0000000000000000000 ) ) ;
#120 = DIRECTION ( 'NONE',  ( -1.000000000000000000, -1.224646799147350000E-016, -0.0000000000000000000 ) ) ;
#121 = CARTESIAN_POINT ( 'NONE',  ( 0.01142320932989461200, -15.15706076493379800, -7.578530382466898800 ) ) ;
#122 = FACE_OUTER_BOUND ( 'NONE', #285, .T. ) ;
#123 = ORIENTED_EDGE ( 'NONE', *, *, #81, .T. ) ;
#124 = CARTESIAN_POINT ( 'NONE',  ( 1.801401161689889700, -28.51763809020500400, -14.25881904510250200 ) ) ;
#125 = ADVANCED_FACE ( 'NONE', ( #249, #90 ), #195, .T. ) ;
#126 = CARTESIAN_POINT ( 'NONE',  ( 1.923223286273255000, 2.355269241580199300E-016, -14.71346540353365400 ) ) ;
#127 = CARTESIAN_POINT ( 'NONE',  ( 2.767326987978963300, -29.99999999999999600, -14.99999999999999800 ) ) ;
#128 = EDGE_LOOP ( 'NONE', ( #255 ) ) ;
#129 = CARTESIAN_POINT ( 'NONE',  ( 2.296642442585006700, 2.812575816097689400E-016, -15.00000000000000000 ) ) ;
#130 = APPLICATION_CONTEXT ( 'automotive_design' ) ;
#131 = AXIS2_PLACEMENT_3D ( 'NONE', #24, #188, #216 ) ;
#132 = FACE_OUTER_BOUND ( 'NONE', #291, .T. ) ;
#133 = ORIENTED_EDGE ( 'NONE', *, *, #117, .F. ) ;
#134 = PLANE ( 'NONE',  #135 ) ;
#135 = AXIS2_PLACEMENT_3D ( 'NONE', #179, #42, #233 ) ;
#136 = COLOUR_RGB ( '',0.7450980392156862900, 0.7450980392156862900, 0.7450980392156862900 ) ;
#137 = ORIENTED_EDGE ( 'NONE', *, *, #178, .T. ) ;
#138 = ORIENTED_EDGE ( 'NONE', *, *, #178, .F. ) ;
#139 = DIRECTION ( 'NONE',  ( -1.224646799147350000E-016, 1.000000000000000000, 0.0000000000000000000 ) ) ;
#140 = CARTESIAN_POINT ( 'NONE',  ( 0.03407417371093362400, -15.32612986475473900, 7.663064932377369400 ) ) ;
#141 = DIRECTION ( 'NONE',  ( 1.000000000000000000, 1.224646799147350000E-016, 0.0000000000000000000 ) ) ;
#142 = PRESENTATION_STYLE_ASSIGNMENT (( #68 ) ) ;
#143 = PRESENTATION_STYLE_ASSIGNMENT (( #5 ) ) ;
#144 = SURFACE_SIDE_STYLE ('',( #273 ) ) ;
#145 = AXIS2_PLACEMENT_3D ( 'NONE', #35, #119, #96 ) ;
#146 = CLOSED_SHELL ( 'NONE', ( #125, #168, #258, #203, #238, #30, #103, #278, #225, #12 ) ) ;
#147 = CARTESIAN_POINT ( 'NONE',  ( 1.918041798790462400E-015, -14.98352498643769500, 7.491762493218847600 ) ) ;
#148 = CARTESIAN_POINT ( 'NONE',  ( 1.801401161689886600, 2.206080166643847300E-016, -14.25881904510250200 ) ) ;
#149 = ORIENTED_EDGE ( 'NONE', *, *, #98, .F. ) ;
#150 = CARTESIAN_POINT ( 'NONE',  ( 2.767326987978960200, 3.388998138022520500E-016, -15.00000000000000000 ) ) ;
#151 = CARTESIAN_POINT ( 'NONE',  ( 1.801401161689889700, -28.51763809020500400, 14.25881904510250200 ) ) ;
#152 = CARTESIAN_POINT ( 'NONE',  ( 1.923223286273251200, 29.42693080706730800, 14.71346540353365400 ) ) ;
#153 = EDGE_LOOP ( 'NONE', ( #92 ) ) ;
#154 = DIRECTION ( 'NONE',  ( -1.156482317317871500E-016, 1.000000000000000000, 0.0000000000000000000 ) ) ;
#155 = PRESENTATION_LAYER_ASSIGNMENT (  '', '', ( #50 ) ) ;
#156 = EDGE_CURVE ( 'NONE', #75, #75, #38, .T. ) ;
#157 = VERTEX_POINT ( 'NONE', #290 ) ;
#158 = AXIS2_PLACEMENT_3D ( 'NONE', #55, #80, #139 ) ;
#159 = CARTESIAN_POINT ( 'NONE',  ( 3.750000000000000000, 4.592425496802579900E-016, 0.0000000000000000000 ) ) ;
#160 = PRODUCT_RELATED_PRODUCT_CATEGORY ( 'part', '', ( #3 ) ) ;
#161 = CYLINDRICAL_SURFACE ( 'NONE', #282, 4.900000000000000400 ) ;
#162 = ORIENTED_EDGE ( 'NONE', *, *, #230, .F. ) ;
#163 = DIRECTION ( 'NONE',  ( 1.000000000000000000, 1.224646799147350000E-016, 0.0000000000000000000 ) ) ;
#164 = AXIS2_PLACEMENT_3D ( 'NONE', #83, #104, #212 ) ;
#165 = CARTESIAN_POINT ( 'NONE',  ( 0.0000000000000000000, 0.0000000000000000000, -7.404245887274850400 ) ) ;
#166 = CARTESIAN_POINT ( 'NONE',  ( 0.01142320932989089800, 15.15706076493379800, -7.578530382466898800 ) ) ;
#167 = FACE_OUTER_BOUND ( 'NONE', #189, .T. ) ;
#168 = ADVANCED_FACE ( 'NONE', ( #86, #45 ), #112, .F. ) ;
#169 = CARTESIAN_POINT ( 'NONE',  ( 0.01142320932989089800, 15.15706076493379800, 7.578530382466898800 ) ) ;
#170 = CARTESIAN_POINT ( 'NONE',  ( -1.751863384126590400E-015, 14.98352498643769500, -7.491762493218847600 ) ) ;
#171 = CARTESIAN_POINT ( 'NONE',  ( -1.751863384126590400E-015, 14.98352498643769500, 7.491762493218847600 ) ) ;
#172 = DIRECTION ( 'NONE',  ( -1.000000000000000000, -1.224646799147350000E-016, -0.0000000000000000000 ) ) ;
#173 =( GEOMETRIC_REPRESENTATION_CONTEXT ( 3 ) GLOBAL_UNCERTAINTY_ASSIGNED_CONTEXT ( ( #113 ) ) GLOBAL_UNIT_ASSIGNED_CONTEXT ( ( #99, #259, #198 ) ) REPRESENTATION_CONTEXT ( 'NONE', 'WORKASPACE' ) );
#174 = ORIENTED_EDGE ( 'NONE', *, *, #117, .T. ) ;
#175 = CARTESIAN_POINT ( 'NONE',  ( 2.767326987978960200, 3.388998138022520500E-016, 15.00000000000000000 ) ) ;
#176 = CARTESIAN_POINT ( 'NONE',  ( 2.767326987978960200, 3.388998138022520500E-016, -15.00000000000000000 ) ) ;
#177 = CARTESIAN_POINT ( 'NONE',  ( 2.296642442585006700, 2.812575816097689400E-016, -15.00000000000000000 ) ) ;
#178 = EDGE_CURVE ( 'NONE', #157, #157, #289, .T. ) ;
#179 = CARTESIAN_POINT ( 'NONE',  ( 5.000000000000000000, 6.123233995736771200E-016, 0.0000000000000000000 ) ) ;
#180 = VERTEX_POINT ( 'NONE', #181 ) ;
#181 = CARTESIAN_POINT ( 'NONE',  ( 5.000000000000000000, 15.00000000000000000, 0.0000000000000000000 ) ) ;
#182 = CIRCLE ( 'NONE', #20, 4.900000000000000400 ) ;
#183 = PRODUCT_DEFINITION_FORMATION_WITH_SPECIFIED_SOURCE ( 'ANY', '', #3, .NOT_KNOWN. ) ;
#184 = CARTESIAN_POINT ( 'NONE',  ( 5.000000000000000000, 4.900000000000001200, 0.0000000000000000000 ) ) ;
#185 = UNCERTAINTY_MEASURE_WITH_UNIT (LENGTH_MEASURE( 1.000000000000000100E-005 ), #88, 'distance_accuracy_value', 'NONE');
#186 = VERTEX_POINT ( 'NONE', #72 ) ;
#187 = PRODUCT_DEFINITION_SHAPE ( 'NONE', 'NONE',  #10 ) ;
#188 = DIRECTION ( 'NONE',  ( 1.000000000000000000, 1.224646799147350000E-016, 0.0000000000000000000 ) ) ;
#189 = EDGE_LOOP ( 'NONE', ( #262 ) ) ;
#190 = AXIS2_PLACEMENT_3D ( 'NONE', #248, #73, #154 ) ;
#191 = DIRECTION ( 'NONE',  ( 1.224646799147350000E-016, -1.000000000000000000, 0.0000000000000000000 ) ) ;
#192 = CARTESIAN_POINT ( 'NONE',  ( 2.076839269193320100E-017, 7.535898384862240300, 0.0000000000000000000 ) ) ;
#193 = FACE_BOUND ( 'NONE', #2, .T. ) ;
#194 = CARTESIAN_POINT ( 'NONE',  ( 2.500000000000000000, 4.900000000000000400, 0.0000000000000000000 ) ) ;
#195 = PLANE ( 'NONE',  #158 ) ;
#196 = PRESENTATION_LAYER_ASSIGNMENT (  '', '', ( #108 ) ) ;
#197 = CARTESIAN_POINT ( 'NONE',  ( 0.03407417372626843400, 4.172882778746542000E-018, 0.0000000000000000000 ) ) ;
#198 =( NAMED_UNIT ( * ) SI_UNIT ( $, .STERADIAN. ) SOLID_ANGLE_UNIT ( ) );
#199 = CIRCLE ( 'NONE', #190, 15.00000000000000000 ) ;
#200 = ORIENTED_EDGE ( 'NONE', *, *, #98, .T. ) ;
#201 = CARTESIAN_POINT ( 'NONE',  ( 1.918041798790462400E-015, -14.98352498643769500, -7.491762493218847600 ) ) ;
#202 = CARTESIAN_POINT ( 'NONE',  ( 0.0000000000000000000, 0.0000000000000000000, 7.404245887274850400 ) ) ;
#203 = ADVANCED_FACE ( 'NONE', ( #94, #65 ), #118, .T. ) ;
#204 = CARTESIAN_POINT ( 'NONE',  ( -9.067586025951076600E-016, 7.404245887274851300, 14.80849177454969900 ) ) ;
#205 = EDGE_LOOP ( 'NONE', ( #162 ) ) ;
#206 = CARTESIAN_POINT ( 'NONE',  ( 2.767326987978963300, -29.99999999999999600, 14.99999999999999800 ) ) ;
#207 = COLOUR_RGB ( '',0.7450980392156862900, 0.7450980392156862900, 0.7450980392156862900 ) ;
#208 = EDGE_LOOP ( 'NONE', ( #70 ) ) ;
#209 = SURFACE_SIDE_STYLE ('',( #59 ) ) ;
#210 =( NAMED_UNIT ( * ) SI_UNIT ( $, .STERADIAN. ) SOLID_ANGLE_UNIT ( ) );
#211 = CARTESIAN_POINT ( 'NONE',  ( -9.067586025951074600E-016, 7.404245887274850400, -8.673617379884035500E-016 ) ) ;
#212 = DIRECTION ( 'NONE',  ( 0.0000000000000000000, 0.0000000000000000000, -1.000000000000000000 ) ) ;
#213 =( GEOMETRIC_REPRESENTATION_CONTEXT ( 3 ) GLOBAL_UNCERTAINTY_ASSIGNED_CONTEXT ( ( #185 ) ) GLOBAL_UNIT_ASSIGNED_CONTEXT ( ( #88, #107, #210 ) ) REPRESENTATION_CONTEXT ( 'NONE', 'WORKASPACE' ) );
#214 = EDGE_LOOP ( 'NONE', ( #138 ) ) ;
#215 = MANIFOLD_SOLID_BREP ( '\X2\5BE69AD4\X0\1', #146 ) ;
#216 = DIRECTION ( 'NONE',  ( -1.156482317317871500E-016, 1.000000000000000000, 0.0000000000000000000 ) ) ;
#217 = DIRECTION ( 'NONE',  ( -8.850629979473504800E-017, 1.000000000000000000, 0.0000000000000000000 ) ) ;
#218 = ORIENTED_EDGE ( 'NONE', *, *, #156, .F. ) ;
#219 =( GEOMETRIC_REPRESENTATION_CONTEXT ( 3 ) GLOBAL_UNCERTAINTY_ASSIGNED_CONTEXT ( ( #71 ) ) GLOBAL_UNIT_ASSIGNED_CONTEXT ( ( #252, #232, #247 ) ) REPRESENTATION_CONTEXT ( 'NONE', 'WORKASPACE' ) );
#220 = DIRECTION ( 'NONE',  ( -8.850629979473504800E-017, 1.000000000000000000, 0.0000000000000000000 ) ) ;
#221 = SHAPE_DEFINITION_REPRESENTATION ( #187, #91 ) ;
#222 = EDGE_LOOP ( 'NONE', ( #174 ) ) ;
#223 = CARTESIAN_POINT ( 'NONE',  ( 0.01142320932989275400, 1.398939674184323100E-018, -7.578530382466898800 ) ) ;
#224 = CARTESIAN_POINT ( 'NONE',  ( -9.067586025951074600E-016, 7.404245887274850400, -4.533793012975550100E-016 ) ) ;
#225 = ADVANCED_FACE ( 'NONE', ( #56, #122 ), #116, .T. ) ;
#226 = CARTESIAN_POINT ( 'NONE',  ( 3.500000000000000000, 4.286263797015740000E-016, 0.0000000000000000000 ) ) ;
#227 = CARTESIAN_POINT ( 'NONE',  ( -9.067586025951074600E-016, 7.404245887274850400, -4.533793012975550100E-016 ) ) ;
#228 = CARTESIAN_POINT ( 'NONE',  ( 5.000000000000000900, 6.123233995736768300E-016, 0.0000000000000000000 ) ) ;
#229 = CARTESIAN_POINT ( 'NONE',  ( 0.0000000000000000000, 0.0000000000000000000, -7.404245887274850400 ) ) ;
#230 = EDGE_CURVE ( 'NONE', #32, #32, #67, .T. ) ;
#231 = FACE_OUTER_BOUND ( 'NONE', #205, .T. ) ;
#232 =( NAMED_UNIT ( * ) PLANE_ANGLE_UNIT ( ) SI_UNIT ( $, .RADIAN. ) );
#233 = DIRECTION ( 'NONE',  ( -1.224646799147350000E-016, 1.000000000000000000, 0.0000000000000000000 ) ) ;
#234 = FACE_OUTER_BOUND ( 'NONE', #39, .T. ) ;
#235 = PLANE ( 'NONE',  #22 ) ;
#236 = EDGE_CURVE ( 'NONE', #270, #270, #182, .T. ) ;
#237 = FILL_AREA_STYLE_COLOUR ( '', #207 ) ;
#238 = ADVANCED_FACE ( 'NONE', ( #234, #69 ), #54, .T. ) ;
#239 = CARTESIAN_POINT ( 'NONE',  ( 0.03407417371093174300, 4.172882776868326500E-018, -7.663064932377370300 ) ) ;
#240 = FILL_AREA_STYLE ('',( #237 ) ) ;
#241 = DIRECTION ( 'NONE',  ( -1.008560160451632100E-016, 1.000000000000000000, 0.0000000000000000000 ) ) ;
#242 = CARTESIAN_POINT ( 'NONE',  ( 0.03407417371093174300, 4.172882776868326500E-018, -7.663064932377370300 ) ) ;
#243 = CARTESIAN_POINT ( 'NONE',  ( 2.296642442585003200, 30.00000000000000400, -15.00000000000000200 ) ) ;
#244 = CARTESIAN_POINT ( 'NONE',  ( 1.923223286273251200, 29.42693080706730800, -14.71346540353365400 ) ) ;
#245 = PRODUCT_DEFINITION_CONTEXT ( 'detailed design', #130, 'design' ) ;
#246 = CARTESIAN_POINT ( 'NONE',  ( 1.813517205190215300E-015, -14.80849177454970100, -7.404245887274850400 ) ) ;
#247 =( NAMED_UNIT ( * ) SI_UNIT ( $, .STERADIAN. ) SOLID_ANGLE_UNIT ( ) );
#248 = CARTESIAN_POINT ( 'NONE',  ( 5.000000000000001800, 6.123233995736768300E-016, 0.0000000000000000000 ) ) ;
#249 = FACE_BOUND ( 'NONE', #222, .T. ) ;
#250 = ORIENTED_EDGE ( 'NONE', *, *, #236, .T. ) ;
#251 = CARTESIAN_POINT ( 'NONE',  ( 5.000000000000000000, 8.599999999999999600, 0.0000000000000000000 ) ) ;
#252 =( LENGTH_UNIT ( ) NAMED_UNIT ( * ) SI_UNIT ( .MILLI., .METRE. ) );
#253 = FACE_OUTER_BOUND ( 'NONE', #84, .T. ) ;
#254 = ORIENTED_EDGE ( 'NONE', *, *, #257, .F. ) ;
#255 = ORIENTED_EDGE ( 'NONE', *, *, #257, .T. ) ;
#256 = CARTESIAN_POINT ( 'NONE',  ( 2.500000000000001300, 3.061616997868394500E-016, 0.0000000000000000000 ) ) ;
#257 = EDGE_CURVE ( 'NONE', #51, #51, #284, .T. ) ;
#258 = ADVANCED_FACE ( 'NONE', ( #106, #167 ), #279, .T. ) ;
#259 =( NAMED_UNIT ( * ) PLANE_ANGLE_UNIT ( ) SI_UNIT ( $, .RADIAN. ) );
#260 = CARTESIAN_POINT ( 'NONE',  ( 2.500000000000000400, 3.061616997868393500E-016, 0.0000000000000000000 ) ) ;
#261 = CIRCLE ( 'NONE', #131, 15.00000000000000000 ) ;
#262 = ORIENTED_EDGE ( 'NONE', *, *, #266, .F. ) ;
#263 = DIRECTION ( 'NONE',  ( -9.903889989678163400E-017, 1.000000000000000000, 0.0000000000000000000 ) ) ;
#264 = CARTESIAN_POINT ( 'NONE',  ( 2.296642442585003200, 30.00000000000000400, 15.00000000000000200 ) ) ;
#265 = CARTESIAN_POINT ( 'NONE',  ( 2.296642442585006700, 2.812575816097689400E-016, 15.00000000000000000 ) ) ;
#266 = EDGE_CURVE ( 'NONE', #180, #180, #199, .T. ) ;
#267 = CARTESIAN_POINT ( 'NONE',  ( 1.813517205190215300E-015, -14.80849177454970100, 7.404245887274850400 ) ) ;
#268 = DIRECTION ( 'NONE',  ( 1.000000000000000000, 1.224646799147350000E-016, 0.0000000000000000000 ) ) ;
#269 = APPLICATION_CONTEXT ( 'automotive_design' ) ;
#270 = VERTEX_POINT ( 'NONE', #184 ) ;
#271 = CARTESIAN_POINT ( 'NONE',  ( 2.500000000000000000, 4.900000000000000400, 0.0000000000000000000 ) ) ;
#272 = PRODUCT_CONTEXT ( 'NONE', #269, 'mechanical' ) ;
#273 = SURFACE_STYLE_FILL_AREA ( #240 ) ;
#274 = AXIS2_PLACEMENT_3D ( 'NONE', #260, #120, #220 ) ;
#275 = VERTEX_POINT ( 'NONE', #251 ) ;
#276 = EDGE_LOOP ( 'NONE', ( #95 ) ) ;
#277 = CARTESIAN_POINT ( 'NONE',  ( 0.03407417371092987000, 15.32612986475473900, -7.663064932377369400 ) ) ;
#278 = ADVANCED_FACE ( 'NONE', ( #132 ), #134, .T. ) ;
#279 = CYLINDRICAL_SURFACE ( 'NONE', #36, 15.00000000000000000 ) ;
#280 = DIRECTION ( 'NONE',  ( 1.000000000000000000, 1.224646799147350000E-016, 0.0000000000000000000 ) ) ;
#281 = CARTESIAN_POINT ( 'NONE',  ( 8.308920733193583900E-017, 1.017549318027457400E-032, 7.491762493218845800 ) ) ;
#282 = AXIS2_PLACEMENT_3D ( 'NONE', #159, #163, #217 ) ;
#283 = CARTESIAN_POINT ( 'NONE',  ( 1.801401161689886600, 2.206080166643847300E-016, -14.25881904510250200 ) ) ;
#284 = CIRCLE ( 'NONE', #164, 14.25881904510250200 ) ;
#285 = EDGE_LOOP ( 'NONE', ( #52 ) ) ;
#286 = CARTESIAN_POINT ( 'NONE',  ( 1.923223286273258600, -29.42693080706730800, 14.71346540353365400 ) ) ;
#287 = AXIS2_PLACEMENT_3D ( 'NONE', #197, #141, #263 ) ;
#288 = CARTESIAN_POINT ( 'NONE',  ( 1.923223286273255000, 2.355269241580199300E-016, -14.71346540353365400 ) ) ;
#289 = CIRCLE ( 'NONE', #287, 7.663064932373260700 ) ;
#290 = CARTESIAN_POINT ( 'NONE',  ( 0.03407417372626767700, 7.663064932373260700, 0.0000000000000000000 ) ) ;
#291 = EDGE_LOOP ( 'NONE', ( #60 ) ) ;
ENDSEC;
END-ISO-10303-21;
